ISO-10303-21;
HEADER;
FILE_DESCRIPTION (( 'STEP AP214' ),
    '1' );
FILE_NAME ('90001373 (200mm x 2010mm).STEP',
    '2025-03-06T13:16:51',
    ( '' ),
    ( '' ),
    'SwSTEP 2.0',
    'SolidWorks 2024',
    '' );
FILE_SCHEMA (( 'AUTOMOTIVE_DESIGN' ));
ENDSEC;

DATA;
#1 = DIRECTION ( 'NONE',  ( -1.000000000000000000, -0.000000000000000000, -0.000000000000000000 ) ) ;
#2 = PLANE ( 'NONE',  #116 ) ;
#3 = CIRCLE ( 'NONE', #84, 100.0000000000000000 ) ;
#4 = AXIS2_PLACEMENT_3D ( 'NONE', #156, #193, #51 ) ;
#5 = STYLED_ITEM ( 'NONE', ( #182 ), #99 ) ;
#6 = CARTESIAN_POINT ( 'NONE',  ( -1004.999999999999886, 0.000000000000000000, 116.0000000000000142 ) ) ;
#7 = AXIS2_PLACEMENT_3D ( 'NONE', #183, #181, #150 ) ;
#8 = ORIENTED_EDGE ( 'NONE', *, *, #112, .F. ) ;
#9 = FACE_OUTER_BOUND ( 'NONE', #75, .T. ) ;
#10 = DIRECTION ( 'NONE',  ( -1.000000000000000000, -0.000000000000000000, -0.000000000000000000 ) ) ;
#11 = CARTESIAN_POINT ( 'NONE',  ( -1004.999999999999886, 116.0000000000000142, 0.000000000000000000 ) ) ;
#12 = DIRECTION ( 'NONE',  ( 0.000000000000000000, 0.000000000000000000, 1.000000000000000000 ) ) ;
#13 = ADVANCED_FACE ( 'NONE', ( #9 ), #194, .T. ) ;
#14 = SURFACE_STYLE_USAGE ( .BOTH. , #164 ) ;
#15 = DIRECTION ( 'NONE',  ( 0.000000000000000000, 0.000000000000000000, 1.000000000000000000 ) ) ;
#16 =( NAMED_UNIT ( * ) PLANE_ANGLE_UNIT ( ) SI_UNIT ( $, .RADIAN. ) );
#17 = VECTOR ( 'NONE', #177, 1000.000000000000000 ) ;
#18 = CARTESIAN_POINT ( 'NONE',  ( 1004.999999999999886, 1.224646799147353217E-14, -100.0000000000000000 ) ) ;
#19 = AXIS2_PLACEMENT_3D ( 'NONE', #60, #160, #74 ) ;
#20 = LINE ( 'NONE', #86, #126 ) ;
#21 = ORIENTED_EDGE ( 'NONE', *, *, #186, .F. ) ;
#22 = EDGE_CURVE ( 'NONE', #191, #192, #197, .T. ) ;
#23 = CIRCLE ( 'NONE', #135, 116.0000000000000000 ) ;
#24 = CARTESIAN_POINT ( 'NONE',  ( -1004.999999999999886, 0.000000000000000000, 0.000000000000000000 ) ) ;
#25 = VERTEX_POINT ( 'NONE', #125 ) ;
#26 = DIRECTION ( 'NONE',  ( 1.000000000000000000, 0.000000000000000000, 0.000000000000000000 ) ) ;
#27 = PLANE ( 'NONE',  #50 ) ;
#28 = VECTOR ( 'NONE', #48, 1000.000000000000000 ) ;
#29 = VERTEX_POINT ( 'NONE', #124 ) ;
#30 = DIRECTION ( 'NONE',  ( -0.000000000000000000, 0.000000000000000000, 1.000000000000000000 ) ) ;
#31 = FACE_BOUND ( 'NONE', #38, .T. ) ;
#32 = PRODUCT_DEFINITION_CONTEXT ( 'detailed design', #106, 'design' ) ;
#33 = DIRECTION ( 'NONE',  ( 0.000000000000000000, 0.000000000000000000, 1.000000000000000000 ) ) ;
#34 = CARTESIAN_POINT ( 'NONE',  ( -1004.999999999999886, 0.000000000000000000, 100.0000000000000000 ) ) ;
#35 =( NAMED_UNIT ( * ) PLANE_ANGLE_UNIT ( ) SI_UNIT ( $, .RADIAN. ) );
#36 = ORIENTED_EDGE ( 'NONE', *, *, #81, .F. ) ;
#37 = ADVANCED_FACE ( 'NONE', ( #162, #92 ), #27, .F. ) ;
#38 = EDGE_LOOP ( 'NONE', ( #108, #178 ) ) ;
#39 = LINE ( 'NONE', #34, #28 ) ;
#40 = ORIENTED_EDGE ( 'NONE', *, *, #22, .F. ) ;
#41 = DIRECTION ( 'NONE',  ( -1.000000000000000000, -0.000000000000000000, -0.000000000000000000 ) ) ;
#42 = FILL_AREA_STYLE_COLOUR ( '', #180 ) ;
#43 = DIRECTION ( 'NONE',  ( 0.000000000000000000, 0.000000000000000000, 1.000000000000000000 ) ) ;
#44 = CARTESIAN_POINT ( 'NONE',  ( 1004.999999999999886, 116.0000000000000000, 0.000000000000000000 ) ) ;
#45 = ADVANCED_BREP_SHAPE_REPRESENTATION ( '90001373 (200mm x 2010mm)', ( #99, #4 ), #101 ) ;
#46 = DIRECTION ( 'NONE',  ( 0.000000000000000000, 0.000000000000000000, 1.000000000000000000 ) ) ;
#47 = ADVANCED_FACE ( 'NONE', ( #163 ), #95, .F. ) ;
#48 = DIRECTION ( 'NONE',  ( -1.000000000000000000, -0.000000000000000000, -0.000000000000000000 ) ) ;
#49 = ORIENTED_EDGE ( 'NONE', *, *, #144, .F. ) ;
#50 = AXIS2_PLACEMENT_3D ( 'NONE', #11, #26, #132 ) ;
#51 = DIRECTION ( 'NONE',  ( 1.000000000000000000, 0.000000000000000000, 0.000000000000000000 ) ) ;
#52 = ORIENTED_EDGE ( 'NONE', *, *, #114, .F. ) ;
#53 = CARTESIAN_POINT ( 'NONE',  ( -1004.999999999999886, 0.000000000000000000, 0.000000000000000000 ) ) ;
#54 = ADVANCED_FACE ( 'NONE', ( #199 ), #94, .T. ) ;
#55 = CARTESIAN_POINT ( 'NONE',  ( -1004.999999999999886, 0.000000000000000000, 0.000000000000000000 ) ) ;
#56 = ORIENTED_EDGE ( 'NONE', *, *, #144, .T. ) ;
#57 = CIRCLE ( 'NONE', #104, 116.0000000000000142 ) ;
#58 = LINE ( 'NONE', #6, #17 ) ;
#59 = AXIS2_PLACEMENT_3D ( 'NONE', #165, #148, #43 ) ;
#60 = CARTESIAN_POINT ( 'NONE',  ( 1004.999999999999886, 0.000000000000000000, 0.000000000000000000 ) ) ;
#61 = EDGE_LOOP ( 'NONE', ( #179, #105 ) ) ;
#62 = EDGE_CURVE ( 'NONE', #139, #192, #85, .T. ) ;
#63 = UNCERTAINTY_MEASURE_WITH_UNIT (LENGTH_MEASURE( 1.000000000000000082E-05 ), #65, 'distance_accuracy_value', 'NONE');
#64 = PRODUCT ( '90001373 (200mm x 2010mm)', '90001373 (200mm x 2010mm)', '', ( #174 ) ) ;
#65 =( LENGTH_UNIT ( ) NAMED_UNIT ( * ) SI_UNIT ( .MILLI., .METRE. ) );
#66 = MECHANICAL_DESIGN_GEOMETRIC_PRESENTATION_REPRESENTATION (  '', ( #5 ), #91 ) ;
#67 = APPLICATION_PROTOCOL_DEFINITION ( 'draft international standard', 'automotive_design', 1998, #184 ) ;
#68 = DIRECTION ( 'NONE',  ( 0.000000000000000000, 0.000000000000000000, 1.000000000000000000 ) ) ;
#69 = DIRECTION ( 'NONE',  ( -1.000000000000000000, -0.000000000000000000, -0.000000000000000000 ) ) ;
#70 = ORIENTED_EDGE ( 'NONE', *, *, #72, .T. ) ;
#71 = ORIENTED_EDGE ( 'NONE', *, *, #152, .T. ) ;
#72 = EDGE_CURVE ( 'NONE', #29, #121, #136, .T. ) ;
#73 = ORIENTED_EDGE ( 'NONE', *, *, #62, .F. ) ;
#74 = DIRECTION ( 'NONE',  ( 0.000000000000000000, 0.000000000000000000, 1.000000000000000000 ) ) ;
#75 = EDGE_LOOP ( 'NONE', ( #49, #70, #88, #113 ) ) ;
#76 = EDGE_LOOP ( 'NONE', ( #21, #158 ) ) ;
#77 = ADVANCED_FACE ( 'NONE', ( #78 ), #123, .F. ) ;
#78 = FACE_OUTER_BOUND ( 'NONE', #131, .T. ) ;
#79 = DIRECTION ( 'NONE',  ( -1.000000000000000000, -0.000000000000000000, -0.000000000000000000 ) ) ;
#80 = CARTESIAN_POINT ( 'NONE',  ( -1004.999999999999886, 1.224646799147353217E-14, -100.0000000000000000 ) ) ;
#81 = EDGE_CURVE ( 'NONE', #90, #191, #169, .T. ) ;
#82 =( LENGTH_UNIT ( ) NAMED_UNIT ( * ) SI_UNIT ( .MILLI., .METRE. ) );
#83 = PRODUCT_DEFINITION ( 'UNKNOWN', '', #138, #32 ) ;
#84 = AXIS2_PLACEMENT_3D ( 'NONE', #127, #137, #33 ) ;
#85 = CIRCLE ( 'NONE', #195, 100.0000000000000000 ) ;
#86 = CARTESIAN_POINT ( 'NONE',  ( -1004.999999999999886, 1.420590287010929927E-14, -116.0000000000000142 ) ) ;
#87 = ORIENTED_EDGE ( 'NONE', *, *, #117, .F. ) ;
#88 = ORIENTED_EDGE ( 'NONE', *, *, #112, .T. ) ;
#89 = ORIENTED_EDGE ( 'NONE', *, *, #186, .T. ) ;
#90 = VERTEX_POINT ( 'NONE', #198 ) ;
#91 =( GEOMETRIC_REPRESENTATION_CONTEXT ( 3 ) GLOBAL_UNCERTAINTY_ASSIGNED_CONTEXT ( ( #63 ) ) GLOBAL_UNIT_ASSIGNED_CONTEXT ( ( #65, #35, #168 ) ) REPRESENTATION_CONTEXT ( 'NONE', 'WORKASPACE' ) );
#92 = FACE_OUTER_BOUND ( 'NONE', #61, .T. ) ;
#93 = ORIENTED_EDGE ( 'NONE', *, *, #62, .T. ) ;
#94 = CYLINDRICAL_SURFACE ( 'NONE', #59, 116.0000000000000142 ) ;
#95 = CYLINDRICAL_SURFACE ( 'NONE', #7, 100.0000000000000000 ) ;
#96 = EDGE_LOOP ( 'NONE', ( #73, #159 ) ) ;
#97 = AXIS2_PLACEMENT_3D ( 'NONE', #24, #1, #15 ) ;
#98 = DIRECTION ( 'NONE',  ( -1.000000000000000000, -0.000000000000000000, -0.000000000000000000 ) ) ;
#99 = MANIFOLD_SOLID_BREP ( 'Revolve1', #196 ) ;
#100 = CARTESIAN_POINT ( 'NONE',  ( -1004.999999999999886, 1.224646799147353217E-14, -100.0000000000000000 ) ) ;
#101 =( GEOMETRIC_REPRESENTATION_CONTEXT ( 3 ) GLOBAL_UNCERTAINTY_ASSIGNED_CONTEXT ( ( #187 ) ) GLOBAL_UNIT_ASSIGNED_CONTEXT ( ( #82, #16, #154 ) ) REPRESENTATION_CONTEXT ( 'NONE', 'WORKASPACE' ) );
#102 = AXIS2_PLACEMENT_3D ( 'NONE', #53, #79, #134 ) ;
#103 = CARTESIAN_POINT ( 'NONE',  ( 1004.999999999999886, 0.000000000000000000, 0.000000000000000000 ) ) ;
#104 = AXIS2_PLACEMENT_3D ( 'NONE', #118, #172, #107 ) ;
#105 = ORIENTED_EDGE ( 'NONE', *, *, #151, .T. ) ;
#106 = APPLICATION_CONTEXT ( 'automotive_design' ) ;
#107 = DIRECTION ( 'NONE',  ( 0.000000000000000000, 0.000000000000000000, 1.000000000000000000 ) ) ;
#108 = ORIENTED_EDGE ( 'NONE', *, *, #81, .T. ) ;
#109 = EDGE_LOOP ( 'NONE', ( #87, #147, #71, #52 ) ) ;
#110 = CIRCLE ( 'NONE', #145, 116.0000000000000142 ) ;
#111 = FILL_AREA_STYLE ('',( #42 ) ) ;
#112 = EDGE_CURVE ( 'NONE', #121, #25, #58, .T. ) ;
#113 = ORIENTED_EDGE ( 'NONE', *, *, #151, .F. ) ;
#114 = EDGE_CURVE ( 'NONE', #90, #139, #39, .T. ) ;
#115 = CARTESIAN_POINT ( 'NONE',  ( -1004.999999999999886, 1.420590287010929927E-14, -116.0000000000000142 ) ) ;
#116 = AXIS2_PLACEMENT_3D ( 'NONE', #44, #185, #30 ) ;
#117 = EDGE_CURVE ( 'NONE', #191, #90, #130, .T. ) ;
#118 = CARTESIAN_POINT ( 'NONE',  ( -1004.999999999999886, 0.000000000000000000, 0.000000000000000000 ) ) ;
#119 = DIRECTION ( 'NONE',  ( -1.000000000000000000, -0.000000000000000000, -0.000000000000000000 ) ) ;
#120 = ORIENTED_EDGE ( 'NONE', *, *, #122, .F. ) ;
#121 = VERTEX_POINT ( 'NONE', #189 ) ;
#122 = EDGE_CURVE ( 'NONE', #25, #167, #57, .T. ) ;
#123 = CYLINDRICAL_SURFACE ( 'NONE', #97, 100.0000000000000000 ) ;
#124 = CARTESIAN_POINT ( 'NONE',  ( 1004.999999999999886, 1.420590287010929612E-14, -116.0000000000000000 ) ) ;
#125 = CARTESIAN_POINT ( 'NONE',  ( -1004.999999999999886, 0.000000000000000000, 116.0000000000000142 ) ) ;
#126 = VECTOR ( 'NONE', #69, 1000.000000000000000 ) ;
#127 = CARTESIAN_POINT ( 'NONE',  ( -1004.999999999999886, 0.000000000000000000, 0.000000000000000000 ) ) ;
#128 = FACE_OUTER_BOUND ( 'NONE', #76, .T. ) ;
#129 = PRODUCT_RELATED_PRODUCT_CATEGORY ( 'part', '', ( #64 ) ) ;
#130 = CIRCLE ( 'NONE', #141, 100.0000000000000000 ) ;
#131 = EDGE_LOOP ( 'NONE', ( #40, #36, #176, #93 ) ) ;
#132 = DIRECTION ( 'NONE',  ( 0.000000000000000000, 0.000000000000000000, -1.000000000000000000 ) ) ;
#133 = DIRECTION ( 'NONE',  ( 0.000000000000000000, 0.000000000000000000, 1.000000000000000000 ) ) ;
#134 = DIRECTION ( 'NONE',  ( 0.000000000000000000, 0.000000000000000000, 1.000000000000000000 ) ) ;
#135 = AXIS2_PLACEMENT_3D ( 'NONE', #103, #153, #46 ) ;
#136 = CIRCLE ( 'NONE', #19, 116.0000000000000000 ) ;
#137 = DIRECTION ( 'NONE',  ( -1.000000000000000000, -0.000000000000000000, -0.000000000000000000 ) ) ;
#138 = PRODUCT_DEFINITION_FORMATION_WITH_SPECIFIED_SOURCE ( 'ANY', '', #64, .NOT_KNOWN. ) ;
#139 = VERTEX_POINT ( 'NONE', #157 ) ;
#140 = APPLICATION_PROTOCOL_DEFINITION ( 'draft international standard', 'automotive_design', 1998, #106 ) ;
#141 = AXIS2_PLACEMENT_3D ( 'NONE', #170, #155, #68 ) ;
#142 = SHAPE_DEFINITION_REPRESENTATION ( #161, #45 ) ;
#143 = EDGE_LOOP ( 'NONE', ( #89, #56, #120, #8 ) ) ;
#144 = EDGE_CURVE ( 'NONE', #29, #167, #20, .T. ) ;
#145 = AXIS2_PLACEMENT_3D ( 'NONE', #190, #119, #173 ) ;
#146 = CARTESIAN_POINT ( 'NONE',  ( 1004.999999999999886, 0.000000000000000000, 0.000000000000000000 ) ) ;
#147 = ORIENTED_EDGE ( 'NONE', *, *, #22, .T. ) ;
#148 = DIRECTION ( 'NONE',  ( -1.000000000000000000, -0.000000000000000000, -0.000000000000000000 ) ) ;
#149 = SURFACE_STYLE_FILL_AREA ( #111 ) ;
#150 = DIRECTION ( 'NONE',  ( 0.000000000000000000, 0.000000000000000000, 1.000000000000000000 ) ) ;
#151 = EDGE_CURVE ( 'NONE', #167, #25, #110, .T. ) ;
#152 = EDGE_CURVE ( 'NONE', #192, #139, #3, .T. ) ;
#153 = DIRECTION ( 'NONE',  ( -1.000000000000000000, -0.000000000000000000, -0.000000000000000000 ) ) ;
#154 =( NAMED_UNIT ( * ) SI_UNIT ( $, .STERADIAN. ) SOLID_ANGLE_UNIT ( ) );
#155 = DIRECTION ( 'NONE',  ( -1.000000000000000000, -0.000000000000000000, -0.000000000000000000 ) ) ;
#156 = CARTESIAN_POINT ( 'NONE',  ( 0.000000000000000000, 0.000000000000000000, 0.000000000000000000 ) ) ;
#157 = CARTESIAN_POINT ( 'NONE',  ( -1004.999999999999886, 0.000000000000000000, 100.0000000000000000 ) ) ;
#158 = ORIENTED_EDGE ( 'NONE', *, *, #72, .F. ) ;
#159 = ORIENTED_EDGE ( 'NONE', *, *, #152, .F. ) ;
#160 = DIRECTION ( 'NONE',  ( -1.000000000000000000, -0.000000000000000000, -0.000000000000000000 ) ) ;
#161 = PRODUCT_DEFINITION_SHAPE ( 'NONE', 'NONE',  #83 ) ;
#162 = FACE_BOUND ( 'NONE', #96, .T. ) ;
#163 = FACE_OUTER_BOUND ( 'NONE', #109, .T. ) ;
#164 = SURFACE_SIDE_STYLE ('',( #149 ) ) ;
#165 = CARTESIAN_POINT ( 'NONE',  ( -1004.999999999999886, 0.000000000000000000, 0.000000000000000000 ) ) ;
#166 = AXIS2_PLACEMENT_3D ( 'NONE', #146, #10, #133 ) ;
#167 = VERTEX_POINT ( 'NONE', #115 ) ;
#168 =( NAMED_UNIT ( * ) SI_UNIT ( $, .STERADIAN. ) SOLID_ANGLE_UNIT ( ) );
#169 = CIRCLE ( 'NONE', #166, 100.0000000000000000 ) ;
#170 = CARTESIAN_POINT ( 'NONE',  ( 1004.999999999999886, 0.000000000000000000, 0.000000000000000000 ) ) ;
#171 = VECTOR ( 'NONE', #41, 1000.000000000000000 ) ;
#172 = DIRECTION ( 'NONE',  ( -1.000000000000000000, -0.000000000000000000, -0.000000000000000000 ) ) ;
#173 = DIRECTION ( 'NONE',  ( 0.000000000000000000, 0.000000000000000000, 1.000000000000000000 ) ) ;
#174 = PRODUCT_CONTEXT ( 'NONE', #184, 'mechanical' ) ;
#175 = ADVANCED_FACE ( 'NONE', ( #128, #31 ), #2, .F. ) ;
#176 = ORIENTED_EDGE ( 'NONE', *, *, #114, .T. ) ;
#177 = DIRECTION ( 'NONE',  ( -1.000000000000000000, -0.000000000000000000, -0.000000000000000000 ) ) ;
#178 = ORIENTED_EDGE ( 'NONE', *, *, #117, .T. ) ;
#179 = ORIENTED_EDGE ( 'NONE', *, *, #122, .T. ) ;
#180 = COLOUR_RGB ( '',0.7921568627450980005, 0.8196078431372548767, 0.9333333333333333481 ) ;
#181 = DIRECTION ( 'NONE',  ( -1.000000000000000000, -0.000000000000000000, -0.000000000000000000 ) ) ;
#182 = PRESENTATION_STYLE_ASSIGNMENT (( #14 ) ) ;
#183 = CARTESIAN_POINT ( 'NONE',  ( -1004.999999999999886, 0.000000000000000000, 0.000000000000000000 ) ) ;
#184 = APPLICATION_CONTEXT ( 'automotive_design' ) ;
#185 = DIRECTION ( 'NONE',  ( -1.000000000000000000, 0.000000000000000000, -0.000000000000000000 ) ) ;
#186 = EDGE_CURVE ( 'NONE', #121, #29, #23, .T. ) ;
#187 = UNCERTAINTY_MEASURE_WITH_UNIT (LENGTH_MEASURE( 1.000000000000000082E-05 ), #82, 'distance_accuracy_value', 'NONE');
#188 = PRESENTATION_LAYER_ASSIGNMENT (  '', '', ( #5 ) ) ;
#189 = CARTESIAN_POINT ( 'NONE',  ( 1004.999999999999886, 0.000000000000000000, 116.0000000000000000 ) ) ;
#190 = CARTESIAN_POINT ( 'NONE',  ( -1004.999999999999886, 0.000000000000000000, 0.000000000000000000 ) ) ;
#191 = VERTEX_POINT ( 'NONE', #18 ) ;
#192 = VERTEX_POINT ( 'NONE', #100 ) ;
#193 = DIRECTION ( 'NONE',  ( 0.000000000000000000, 0.000000000000000000, 1.000000000000000000 ) ) ;
#194 = CYLINDRICAL_SURFACE ( 'NONE', #102, 116.0000000000000142 ) ;
#195 = AXIS2_PLACEMENT_3D ( 'NONE', #55, #98, #12 ) ;
#196 = CLOSED_SHELL ( 'NONE', ( #54, #47, #37, #77, #175, #13 ) ) ;
#197 = LINE ( 'NONE', #80, #171 ) ;
#198 = CARTESIAN_POINT ( 'NONE',  ( 1004.999999999999886, 0.000000000000000000, 100.0000000000000000 ) ) ;
#199 = FACE_OUTER_BOUND ( 'NONE', #143, .T. ) ;
ENDSEC;
END-ISO-10303-21;
